Gracia

Solo disponible en BuenasTareas
  • Páginas : 3 (710 palabras )
  • Descarga(s) : 0
  • Publicado : 3 de marzo de 2012
Leer documento completo
Vista previa del texto
Moves Like Jagger - Maroon 5 Ft. Christina Aguilera

Contact: Pino102@mail.chapman.edu
Artist: Maroon 5
Song: Moves Like Jagger
Cover: Ryan Pino
URL:http://www.youtube.com/watch?v=m9J8RKk0YL8


My Channel: www.youtube.com/user/Pinoguy321
My Website: www.pinoguy.com

Subscribe if you'd like to get more tabs, lessons, tips, and singing guitar videos!

Here itis! Send any questions or edits you'd like to see to this tab

E||----------------------------|---------------|----------------------------|B||----------------------------|---------------|----------------------------|
G||-----------2s--4--2---------|---------------|-----------2s--4--2---------|
D||--------2------------4--2---|-----2s--4-----|--------2------------4--2---|A||--2--5--------------------5-|--5---------2--|--2--5--------------------5-|
E||----------------------------|---------------|----------------------------|---------------|---------------------------------------|
---------------|----------10s-12-10--------------------|
---------------|--------9-----------11-9-------9s-11---|
-----2s--4-----|--9--12------------------12-12-------9-|--5---------2--|---------------------------------------|
---------------|---------------------------------------|


------------------------------------------|------------------------|----------10s-12-10-----------------------|------------------------|
--------9-----------11-9-------9s-11------|------------------------|
--9--12------------------12-12-------9----|--------2s-4-----4s-2-2-|---------------------------------------/2-|--2-4-5-----------------|
------------------------------------------|-------------2-2--------|


------------------------|--------------------------------------|------------------------|--------------------------------------|
------------------------|--------------------------------------|
--------2s-4-----4s-2-2-|----4-2----------4-2----------4-2-----|...
tracking img