Guitarra

Solo disponible en BuenasTareas
  • Páginas : 8 (1921 palabras )
  • Descarga(s) : 0
  • Publicado : 26 de noviembre de 2011
Leer documento completo
Vista previa del texto
Círculo de Do

Los círculos son buenos para prácticar los acordes, muchos empiezan tocando ésto cuando estan empezando a tocar la guitar. El círculo de Do no ocupa cejilla, así que es ideal para principiantes.
Recordando como se leen los acordes:

El círculo de Do se compone de:


Círculo de Re
Los círulos de la guitarra son buenos para prácticar los acordes, muchos empiezantocando ésto cuando estan empezando a tocar la guitar.
Recordando como se leen los acordes:


El círculo de Re se compone de :


Círculo de Sol como tocarlo
El círculo de sol es el más fácil de tocar, pero no por fácil deja de sonar bien, han hecho canciones completas con éste solo círculo. Puedes practicarlo con infinidad de ritmos. Este círculo es el que normalmente enseñan en lasprimeras clases de guitarra. Así que a practicar. Suerte.

Recordando como se leen los acordes:

El círculo de Sol se compone de:


Las líneas en la Tablatura
Aquí está un ejemplo de un tab. Cada línea representa una cuerda. La de más arriba es la primera cuerda y la de hasta bajo es la sexta cuerda. (Puede haber tabs de 7 líneas para las guitarras de 7 cuerdas, y tabs de 4 línaspara el bajo)
E------------------------------- 1era cuerda
B------------------------------- 2da cuerda
G------------------------------- 3era cuerda
D------------------------------- 4ta cuerda
A------------------------------- 5ta cuerda
E------------------------------- 6ta cuerda
Los números de las Tablaturas
Los números que dice es el traste que debes tocar, si ésta un 0,significa que debes tocar la cuerda al aire, es decir sin presionar ningún traste.
Tercer Traste Cuerda al aire

E-----3-----------------0------- 1era cuerda
B------------------------------- 2da cuerda
G------------------------------- 3era cuerda
D------------------------------- 4ta cuerda
A------------------------------- 5ta cuerda
E------------------------------- 6ta cuerdaOrden de las Tablaturas
E----------8--------------------
B-----5-------------------------
G-------------0-----------------
D-------------------------------
A-------------------------------
E-------------------------------
Lo que dices es que debes tocar primero la segunda cuerda en el 5to traste, después la primera cuerda en el 8vo traste, y por el último la 3era cuerda suelta (es decir sinpresionar ni un traste).
Notas Tocadas al mismo tiempo
E:------------6---------- -->1era Cuerda
B:------------6----------
G:-----------------------
D:-----------------------
A:-----------------------
E:-----------------------
En el ejemplo anterior, como están en la misma lína vertical, se tocan al mismo tiempo las 2 notas, es decir se toca la primera y la segunda cuerda en el sextotraste al mismo tiempo
Tono en la Tablatura
Una de las primeras cosas que encontrarás en una tablatura es el tono en que se encuentra la canción. Lo pondrán como:

Standard Tuning (afinado normal EADGBE) ver Cifrado Americano
Drop D tuning (afinado en RE)
Drop D down a half step (Afinado en RE medio tono abajo)
Tambíen puede que veas los nombres de las cuerdas tocadas al aire (es decir sinpresionar ningún traste)

Las notas de la baja a la alta - Db Ab Db Gb Bb Eb
Las notas de la baja a la alta - C G C F A D

Las letras que ves en la parte izquierda indica el nombre de las cuerdas tocadas al aire. Abajo está un ejemplo de afinado normal.

Nombre de las cuerdas tocadas al aire

E:-------------- --> 1era Cuerda
B:-------------- --> 2da Cuerda
G:-------------- -->3era Cuerda
D:-------------- --> 4ta Cuerda
A:-------------- --> 5ta Cuerda
E:-------------- --> 6ta Cuerda
Aquí está un ejemplo de una canción tocada medio tono abajo. Se verá como sigue. Eb significa Mi bemol, es decir que está medio tono abajo.
Nombre de las cuerdas tocadas al aire

Eb:-------------- --> 1era Cuerda
Bb:-------------- --> 2da Cuerda
Gb:-------------- --> 3era...
tracking img