Hola

Solo disponible en BuenasTareas
  • Páginas : 2 (444 palabras )
  • Descarga(s) : 0
  • Publicado : 11 de septiembre de 2012
Leer documento completo
Vista previa del texto
Coldplay – Violet Hill (Guitar Chords)



[pic]



Tuning:

C# (Tune e down to c#) e and b are SAME C#!!!!!
C# (Tune b up to c#)
G
D
A
E

I don’t know exactly what the chordsare called but I have a pretty good idea, so I will give them my own names.











C#

C#---0------------
C#---0------------
G-----9------------
D-----11------------A------11------------
E------0--------------


C#m

C#---0------------
C#---0------------
G-----8------------
D-----11------------
A------11------------
E------0--------------


AC#---0------------
C#---0------------
G-----6------------
D-----7------------
A------7------------
E------0------------


F

C#---0------------
C#---0------------
G-----2------------
D-----4------------A------4------------
E------0------------








G

C#---0------------
C#---0------------
G-----8------------
D-----9------------
A-----9------------
E------0------------

BC#---0------------
C#---0------------
G-----4------------
D-----6------------
A-----6------------
E------0------------


I HAVE NO IDEA what this chord is so I am going to call it a C.

CC#---0------------
C#---0------------
G-----13------------
D-----14-----------
A-----14------------
E------0------------




Now here is where you use them, I might play the chorus a littledifferent because its something I added in there but this is how you play them. Lyrics are from official website!!!!!!










VERSE 1:


C#
It was a long and darkDecember

C#m
From the rooftops I remember

A F (Just slide down 1 fret 3 times, or just stay on f)
There was snow, whitesnow

C#
Clearly I remember

C#m
From the windows they were watching

A F
While we froze down below...
tracking img