Introduccion

Solo disponible en BuenasTareas
  • Páginas : 4 (973 palabras )
  • Descarga(s) : 0
  • Publicado : 10 de diciembre de 2010
Leer documento completo
Vista previa del texto
Introduccion:
G|--------------------------------------| 2X
D|-----------------------9---------4----|
A|------4--------4---777--7---5555--5---|E|-5555--5--5555--5---------------------|

Verso
G|--------------------------------------|D|-----------------------9---------4----| 9x
A|------4--------4---777--7---5555--5---|
E|-5555--5--5555--5---------------------|

Algunas variacionesque se oyen en el verso:
G|--------------------------------------| (que se tocan despues del Segundo verso)
D|-----------------------7---------6----|A|------4--------4---777--7---5555--5---|
E|-5555--5--5555--5---------------------|


coroG|--------------------------------------| 4X
D|--------------------------------------|
A|--------------------------555555555---|E|-5555555555---222222222---------------|

Puente:

G|-------------------------------------------|
D|-------------------------------------------|A|--7777777---9999999---555555---------------|
E|------------------------------5555555------|G|-------------------------------------------|
D|-------------------------------------------|
A|--7777777---9999999---555555555555---------|E|-------------------------------------------|

En tu planeta me quede...
G|------------------------------------------------
D|------------6-----------------10----------------
A|-------6-------6---------10-------10--10--------...
tracking img