Loco

Solo disponible en BuenasTareas
  • Páginas : 5 (1072 palabras )
  • Descarga(s) : 0
  • Publicado : 14 de diciembre de 2010
Leer documento completo
Vista previa del texto
Riff 1
Guitar 1
eb|-----------------------------------------|
Bb|-----------------------------------------|
Gb|-----------------------------------------|
Db|-0-1------4-5------8-9-------12-13-------|
Ab|-----2--------6--------10----------14----|Eb|-------3--------7---------11----------15-|

Guitar 2
eb|------------------------------------------|
Bb|---------------------11-12------15-16-----|
Gb|-7-8------11-12-----------12---------16---|
Db|-----9---------13-----------13---------17-|
Ab|------10---------14-----------------------|Eb|------------------------------------------|

Riff 2
eb|---------------------------------|
Bb|---------------------------------|
Gb|---------------------------------|
Db|-----2-----2---------------------|
Ab|---2-----3---3-2-2-----2---------|Eb|-0-----0---------0-0-0-0-0-0-0-0-|
* * * * * * * *
eb|----------------------------------|
Bb|----------------------------------|
Gb|----------------------------------|
Db|-----2-----2----------------------|
Ab|---2-----3---3-2-2-----2---/4-3-2-|Eb|-0-----0---------0-0-0-0-0-/5-4-3-|
* * * * *
eb|---------------------------|
Bb|---------------------------|
Gb|---------------------------|
Db|-----2-----2---------------|
Ab|---2-----3---3-2-2-----2---|
Eb|-0-----0---------0-0-0-0-0-|
* * * * *eb|----------------------------------------|
Bb|----------------------------------------|
Gb|----------------------------------------|
Db|-----------------------7-------7--------|
Ab|-/4-3-2--/4-3-2--/4-3--5-------3------2-|
Eb|-/5-4-3--/5-4-3--/5-4------0-0----3b4-0-|* *
Riff 2a
eb|---------------------------------|
Bb|---------------------------------|
Gb|---------------------------------|
Db|-----2-----2---------------------|
Ab|---2-----3---3-2-2-----2---------|
Eb|-0-----0---------0-0-0-0-0-0-0-0-|
** * * * * * *
"The more of you that I inspect..."
eb|----------------------------------|
Bb|----------------------------------|
Gb|----------------------------------|
Db|-----2-----2----------------------|
Ab|---2-----3---3-2-2-----2---/4-3-2-|Eb|-0-----0---------0-0-0-0-0-/5-4-3-|
* * * * *
"The more of me I see reflect..."
eb|---------------------------------|
Bb|---------------------------------|
Gb|---------------------------------|
Db|-----2-----2---------------------|Ab|---2-----3---3-2-2-----2---------|
Eb|-0-----0---------0-0-0-0-0-0-0-0-|
* * * * * * * *
"The more I try to read your lips..."

eb|---------------------------------|
Bb|---------------------------------|
Gb|---------------------------------|...
tracking img