No me arrepiento de este amor tab

Solo disponible en BuenasTareas
  • Páginas : 9 (2063 palabras )
  • Descarga(s) : 0
  • Publicado : 2 de septiembre de 2012
Leer documento completo
Vista previa del texto
Attaque 77
No me arrepiento de este amor
G5 Bb5
e|-----------------|-----------------|-----------------|-----------------|>
B|-----------------|-----------------|-----------------|-----------------|>G|-----------------|-----------------|-----------------|-----------------|>
D|-----------------|-----------------|-----------------|-----------------|>
A|-----------------|-----------------|-------------3-3-|-5---5-5-3-3---5-|>
E|---------3---5---|-6---6-6-5-5-5-3-|(3)----3-6-6-----|-------------6---|>
1 + 2 + 3 + 4 + 1 + 2 + 3 + 4 + 1 + 2 + 3 + 4 + 1 + 2 + 3 + 4 +F5 G5
e|-----------------|-----------------|-----------------|-----------------|>
B|-----------------|-----------------|-----------------|-----------------|>
G|-----------------|-----------------|-----------------|-----------------|>D|-----------------|-----------------|-----------------|-----------------|>
A|(5)----5-5-5-6-5-|-3---3-3---------|-----------3-5-3-|-----------------|>
E|-----------------|---------6-6-6-5-|(5)----5-5-------|-6---6-6-5-5-5-3-|>
1 + 2 + 3 + 4 + 1 + 2 + 3 + 4 + 1 + 2 + 3 + 4 + 1 + 2 + 3 + 4 +G5 Bb5
e|-----------------|-----------------|-----------------|-----------------|>
B|-----------------|-----------------|-----------------|-----------------|>
G|-----------------|-----------------|-----------------|-----------------|>D|-----------------|-----------------|-----------------|-----------------|>
A|-----------------|-----------------|-------------3-3-|-5---5-5-3-3---5-|>
E|(3)----3-3-3-5-5-|-6---6-6-5-5-5-3-|(3)----3-6-6-----|-------------6---|>
1 + 2 + 3 + 4 + 1 + 2 + 3 + 4 + 1 + 2 + 3 + 4 + 1 + 2 + 3 + 4 +

F5G5
e|-----------------|-----------------|-----------------|-----------------|>
B|-----------------|-----------------|-----------------|-----------------|>
G|-----------------|-----------------|-----------------|-----------------|>D|-----------------|-----------------|-----------------|-----------------|>
A|(5)----5-5-5-6-5-|-3---3-3---------|-----------3-5-3-|-----------------|>
E|-----------------|---------6-6-6-5-|(5)----5-5-------|-6---6-6-5-5-5-3-|>
1 + 2 + 3 + 4 + 1 + 2 + 3 + 4 + 1 + 2 + 3 + 4 + 1 + 2 + 3 + 4 +


e|-----------------||B|-----------------||
G|-----------------||
D|-----------------||
A|-----------------||
E|(3)--------------||
1 + 2 + 3 + 4 +


ESTROFAS
========

G5
No me arrepiento de este amor,Bb5
aunque me cueste el corazón;
F5
amar es un milagro, y yo te amé,
G5
como nunca jamás lo imaginé. X2


Bb5
Después de cerrar la puerta,
F5
nuestra cama espera...
tracking img