Patience tabs

Solo disponible en BuenasTareas
  • Páginas : 5 (1240 palabras )
  • Descarga(s) : 0
  • Publicado : 21 de noviembre de 2011
Leer documento completo
Vista previa del texto
Intro
D#--------0-0---------------------------------------------|
I A#--------1-1--1--1--3p1-1--0h1--1--1p0--------0----------|
z F#------0------0--0--0---0--0----0--0--------0---0--------|
z C#--2-2--------2--2--2---2--2----2--2------0-------0------|
y G#--3----------3--3--3---3--3----3--3----2-----------2----|D#--------------------------------------------------------|

D#------------------------------------------------------|
I A#--1p0---------------2---------0--3p2---0h2-2----------|
z F#------0-2p0---0h2-----2---2----------2-0h2-2-2--0-----|
z C#------------0-0h2-------2---2--------2-------2--0-----|
y G#------------------0-----------------------------------|
D#------------------------------------------------------||---2----2----2-2------3p2--2--0--2-------|
I |---3--3----3-----3-3--3----3--3--3-------|
z |---2---------------2--2----2--2--2-------|
z |---0---------------0--0----0--0--0-------|
y |-----------------------------------------|
|-----------------------------------------|
Repeat the above while slash plays the following:|------------------10--------------------7-8-9-10--------------------|
|-----8--8--10--12----12/10--8-10-8-10fb----------10fb--8--10----10--|
|--7-----------------------------------------------------------9-----|
|--------------------------------------------------------------------|
|--------------------------------------------------------------------|
|--------------------------------------------------------------------||--7/8/9-----10----8-----7-------7/5-----------0------------|
|---------------------------8----------------1---3p1--------|
|--7/8/9--11-----9----7-------7--7/5-------0------------0---|
|----------------------------------------3------------2-----|
|----------------------------------------2------------------|
|-----------------------------------------------------------||----------------------------------------------------------------|
|-----------------------1---------------0--------1---------------|
|--------0------------0---0--------------------0---0-------------|
|------0----0-------2-------2---------2------2-------2-----------|
|----2--------2---3-----------------2------3-----------3--2--2---|
|--3------------3-------------3-2-0--------------------------3---||-----------------2-------------------------------------|
|--------0------3---------------------------------------|
|------0---0----2---------------------------------------|
|----0-------0--0---------------------------------------|
|--2----------------------------------------------------|
|-------------------------------------------------------|

Verse(fig 1)|--------------------------------------------------------------|
|-------1-----------3-1---1------------------------------------|
|-----0-----------------0---0------------0-----------0---------|
|---2-------------------------2--------0-----------0---0-----0-|
|-3-----------------------------3-0--2-----0-----2-------2-----|
|--------------------------------------------3-3-----------3---|
| Slash
|__________
| Izzy|-----------------------------------------------------------------|
|-------1--1--1--1--3p1---0---1-----------------------------------|
|-----0----0--0--0--0-----------0----------------------0-------0--|
|---2------2--2--2--2-----------------------------0------0--2--0--|
|-3--------3--3--3--3---3---------3--2---2-0------2--0------------|
|----------------------------------------------3------------------||--------5-------5-----5----------------0-2----3-2---0--2----|
|------5---5-----5-------5------------3----------------------|
|----6-----------6h7-----------------------------------------|
|--7---------7---------------------0---------0---------------|
|---------------------------0--3-4---------------------------|
|------------------------------------------------------------|
| slash...
tracking img