Quintas

Solo disponible en BuenasTareas
  • Páginas : 6 (1475 palabras )
  • Descarga(s) : 4
  • Publicado : 13 de mayo de 2010
Leer documento completo
Vista previa del texto
Acordes quintas

F5 F#5 G5 G#5 A5 A#5 B5 C5 C#5 D5 D#5………………………………………………………….
e---------------------------------------------------------------------------------|
B---------------------------------------------------------------------------------|
G---------------------------------------------------------------------------------|D-3---4---5---6---7---8---9---10---11—-12---13---14---15---16---17---18--19-20--22|
A-3---4---5---6---7---8---9---10---11--12---13---14---15---16--17--18--19-20-21-22|
E-1---2---3---4---5---6---7---8----9---10---11---12---13---14--15--16--17-18-19-20|

tambien

A#5 B5 C5 C#5 D5 D#5 E5… ……………………………………………………….
e---------------------------------------------------------------------------------|B---------------------------------------------------------------------------------|
G-3---4---5---6---7---8---9---10---11—-12---13---14---15---16---17---18--19-20--22|
D-3---4---5---6---7---8---9---10---11--12---13---14---15---16--17--18--19-20-21-22|
A-1---2---3---4---5---6---7---8----9---10---11---12---13---14--15--16--17-18-19-20|
E---------------------------------------------------------------------------------|

Se me olvidaron A5 yE5 se haces asi
E5 A5
e---------------------------------------------------------------------------------|
B---------------------------------------------------------------------------------|
G--------2------------------------------------------------------------------------|
D-2------2---------------------------------------------------------A-2------0----------------------------------------------------------------
E-0------------------------------------------------------------------------

Tablatura 21 guns: tocas solo dond hay acordes quintas.
INTRO (slide):

e-----1-----------5---------|
B----------3------------5---|
G---------------------------|
D---------------------------| x 2
A---------------------------|
E---------------------------|

VERSE:

Do youknow what's worth fighting for,
e-1-1--------------1-1-----------|
B-3-3--------------1-1---1-1--111|
G-2-2------3-3-----2-2---0-0--000|
D-0-0------3-3-----3-3---2-2--222|
A----------1-1-----------3-3--333|
E--------------------------------|

When it's not worth dying for?
e-1-1--------------1-1-----------|
B-3-3--------------1-1---1-1--111|
G-2-2------3-3-----2-2---0-0--000|D-0-0------3-3-----3-3---2-2--222|
A----------1-1-----------3-3--333|
E--------------------------------|

Does it take your breath away?
e-1-1--------------1-1-----------|
B-3-3--------------1-1---1-1--111|
G-2-2------3-3-----2-2---0-0--000|
D-0-0------3-3-----3-3---2-2--222|
A----------1-1-----------3-3--333|
E--------------------------------|

And you feel yourself suffocating?e------------------------------------------|
B--------------------1-1-1-1-1-1-1-1-------|
G-3-3-3-3-3-3-3-3----0-0-0-0-0-0-0-0-------|
D-3-3-3-3-3-3-3-3----2-2-2-2-2-2-2-2-------|
A-1-1-1-1-1-1-1-1----3-3-3-3-3-3-3-3-------|
E------------------------------------------|

Does the pain weigh out the pride,
e-1-1--------------1-1-----------|
B-3-3--------------1-1---1-1--111|G-2-2------3-3-----2-2---0-0--000|
D-0-0------3-3-----3-3---2-2--222|
A----------1-1-----------3-3--333|
E--------------------------------|

And you look for a place to hide?
e-1-1--------------1-1-----------|
B-3-3--------------1-1---1-1--111|
G-2-2------3-3-----2-2---0-0--000|
D-0-0------3-3-----3-3---2-2--222|
A----------1-1-----------3-3--333|
E--------------------------------|

Did someone break your heartinside?
e-1-1--------------1-1-----------|
B-3-3--------------1-1---1-1--111|
G-2-2------3-3-----2-2---0-0--000|
D-0-0------3-3-----3-3---2-2--222|
A----------1-1-----------3-3--333|
E--------------------------------|

You're in ruins
e------------------|
B------------------|
G------3-----------|
D------3-----------|
A------1-----------|
E------------------|

CHORUS:

One, 21...
tracking img