Socialismo

Solo disponible en BuenasTareas
  • Páginas : 3 (721 palabras )
  • Descarga(s) : 0
  • Publicado : 9 de noviembre de 2011
Leer documento completo
Vista previa del texto
Intro1:
G----------|-----------------------------------------------------
D----------|-----------------------------------------------------A--guitar--|--------0-0-3-0-0--5---------0-0-3-0-0--3-5-5-3-5-3--
E----------|--0-3-4----------------0-3-4-------------------------

Intro2:G------------------------------------------------------------------------------D------------------------------------------------------------------------------
A--0-3-5/7-6-5-5-3-5-3--0-3-5/7-6-5-5-3-5-3--0-3-5/7-6-5-5-3-5-3--0-3-5/7-6-5--E------------------------------------------------------------------------------

Verse: x2
G--------------------- -----------------------------------
D--------------------------------------------------------
A--0-3---3-5-5-3-5-3--x3 -------------------/7-7-7-7-7-7-7--
E------0-------------- -3-3-3-3-3-3-3-3-0-----------------Pre-chorus:
G-----------------------------------------------------------------------D-----------------------------------------------------------------------
A--0-3-5/7-6-5-5-3-5-3--0-3-5/7-6-5-5-3-5-3--------0-3-5/7-6-5-5-3-5-3--E--------------------------------------------0-3-4----------------------

------------------------------------
--------------------------------------------------------/7-7-7-7-7-7-7--
--3-3-3-3-3-3-3-3-0-----------------

Chorus:
G-------------------------- --------------------------------...
tracking img