Tab devildriver- clouds over california

Solo disponible en BuenasTareas
  • Páginas : 4 (926 palabras )
  • Descarga(s) : 0
  • Publicado : 21 de febrero de 2012
Leer documento completo
Vista previa del texto
"Clouds Over California" by Devildriver
Album> "The Last Kind Words"
Tuning> Drop D (DadgbE)

Key/Legend:
~ - ring
* - pitch harmonic
\/- slide down or up
. - palm mute
h - hammer onp - pull off

This is my first tab. I did everything in my heart to make it right.

Introduction

Guitar 1
|--------|
|--5-----|
|---5----|
|----5---|
|-----5--|
|--------|Guitar 1 (00:00-00:22) x2
|--------------------------------------------------------------|------------------|x3|--------------------------------------------------------------|------------------|
|--------------------------------------------------------------|------------------||--------------------------------------------------------------|-----5--------3---|
|--------------------------------------------------------------|---5---5----3---3-|
|--0-0-0-0-0-0-0-0-0-0-0-0-0-0-0-0-0-0-0-0-0-0-0-0-0-0-0-0-0-0-|-5--------3-------|
. .. . . . . . . . . . . . . . . . . . . . . . . . . . . .



Riff A(00:22-00:33)
Guitar 1
|--------------------------------------------------||--15-------15-------15----17-18-18-18-17-18-18-18-|
|-----14-14----14-14----14-------------------------|
|--------------------------------------------------|
|--------------------------------------------------||--------------------------------------------------|


Guitar 1
|--------------------------------------------------|
|--15-------15-------15----17-18-17----17-18-17----||-----14-14----14-14----14----------17----------17-|
|--------------------------------------------------|
|--------------------------------------------------|
|--------------------------------------------------|

Guitar 1|---------------------------------------------------------------|
|--15-------15-------15----15-------15-------15----17-18~---5*~-|
|-----14-14----14-14----14----14-14----14-14----14--------------|...
tracking img