Tareas

Solo disponible en BuenasTareas
  • Páginas : 2 (464 palabras )
  • Descarga(s) : 0
  • Publicado : 17 de noviembre de 2010
Leer documento completo
Vista previa del texto
Ahi les va esta excelente canción
sólo debes ser rápido con los dedos y seguir las instrucciones ;)

e----------------------------------------------\B---------------------------------------------- \
G---------------------------------------------- \
D-12-10----10-9----------9----9-10-9----------- \
A-------12------12-10-12---12--------12-10----- \E---------------------------------------------- \
\ Riff#1
/ (se toca en
e----------------------------------------------/ la parte A)
B---------------------------------------------- /
G---------------------------------------------- /
D-12-10----10-9----------9----9-10------------- /A-------12------12-10-12---12------12---------- /
E----------------------------------------------/

e----------------------------------------------------------------\B--------------------------------------------10-11-10------------ \
G-9-10-9----9-10-9----9-10-12~-9-10-12-10-12----------12-10-12~-- \
D--------12--------12-------------------------------------------- \A---------------------------------------------------------------- \
E---------------------------------------------------------------- / Riff#2
/ (se tocae----------------------------------------------- / en la
B---------------10-11-10-11-13-11-10-11-10-11--- / parte B)G-9-10-12-10-12--------------------------------- /
D----------------------------------------------- /
A----------------------------------------------- /E----------------------------------------------- /
_______/
e----------10-11-13-11-10----10-11-13-11-10----- /
B-10-11-13----------------13----------------13~- /...
tracking img