Ciencias

Solo disponible en BuenasTareas
  • Páginas : 3 (740 palabras )
  • Descarga(s) : 0
  • Publicado : 21 de enero de 2011
Leer documento completo
Vista previa del texto
G#m
[pic] |F#
[pic] |E
[pic] |B
[pic] |Eb
[pic] | |Esta es la lista de acordes especificada por el transcriptor.

piano

|[pic] |F# |E|B |Eb |
| |[pic] |[pic] |[pic] |[pic] |
|| | | | |

Ustedes memorisen las bases (A,B,C,D),la base del precoro;
las notas del estribo,ysigan este orden que
les escribire abajo de las bases.

G|---1---------------------|
D|------4--1---------------|
A|-----------4--2--1-------|
E|--------------------4----| BASE (A)G|---1---------------------|
D|------4--1---------------|
A|-----------4--1----2--1--|
E|----------------2------4-| BASE (B)

G---1------------|
D-----4--1-----2-|
A----------4-----|
E----------------|BASE (C)

G---1------------|
D-----4--1-------|
A----------4---2-|
E----------------| BASE (D)

PRECORO:
G|-----------------------|
D|-----------------------|
A|--------2---2--2-------|(Parte Uno)
E|--4--2-----------------|

G|----------------------------------------------|
D|----------------------------------------------| (Parte Dos)A|--------2---2--2------------------------------|
E|--4--2--------------2--2-2----0--0-0---0--0-0-| x1
ESTRIBO: B+/F#/G#-/E (La base va al bombo)

Haci va la cancion en orden... Siganlan !!!

INTRO: G#-/F#/E Guitarra y Banda (sin bajo)X2

Bases... Ax1/Bx5/Cx1/Bx1/Cx1/Dx1 --> Golpe final G#-
Ax1/Bx1/Cx1/Bx1/Cx1/Dx1 --> Golpe final G#-

Precoro x 1
Estribo x 2

Bx2/Cx1/Bx1/Dx1 --> Golpe final G#-
Ax1/Bx1/Cx1/Bx1/Cx1/Dx1 -->Golpe final G#-

Precoro x1
Estribo x2
En el riff la base es esta: Bx8/Dx1
Estribo x 2 y Fin xD

Intro (Gm# F# E) x 4

Gm# F# E B E
Aquí estoy, rendido por tu...
tracking img