Construccion 2010

Solo disponible en BuenasTareas
  • Páginas : 2 (398 palabras )
  • Descarga(s) : 0
  • Publicado : 31 de enero de 2011
Leer documento completo
Vista previa del texto
A un minuto de ti.

e-|------------------------------------5--
B-|---------5--------5--------5--------5--
G-|--------5--5--------5-----5--5------5--
D-|----7----------7--------7-----------7--A-|---7---------7---------7------------7--
E-|---------------------------------------

e-|--55--333--5----3----------------------
B-|--------------5---5---333--5--3--------G-|--------------------------------5--2---

B-|-------------------5--3----------------
G-|--2--4--5-5--222--------5-4-5--7--5-4--

e-|--10/10--8-7----5-5---7-8/8--5-5-5-----|--5-------------------B-|--------------------------------------------8--6-5--8----6-5--

G F
Antes de tres lunas volvería por ti,
Am G
Antes que me eches de menos.F
Dejaste viñas, huertas, vidas al pasar,
Am G
Nunca te he esperado tanto.

F C G
A un minuto de ti, voy detrás de ti,
FC G
A un minuto de ti, te seguiré.

F
El viento se ha calzado sus guantes de piel,
Am G
Se entretiene con mi pelo.F
Bebo el agua que viene conmigo, estoy
Am G
Estancado en tu reflejo.
F C G
Solamente bebí, gota a gota,
F C G
Solamentebebí, veneno y sed.

CORO:
D F C
Llegare, solo hasta el umbral.
G D F C
Naaada, que puedo perder.
G D F C
Me atreveré, cuentoun paso mas.
G D F C
Naaada, no soy como tu.

Estribillo:

e-|---------------------------------
B-|---------------------------------
G-|---------------------------------D-|---7-7-7--5-7-5-----5-7----------
A-|-----------------8---------------
E-|---------------------------------

G-|---7--5---7--5-----5-5------------
D-|----------------7-------7--5------...
tracking img