Fobia

Solo disponible en BuenasTareas
  • Páginas : 3 (528 palabras )
  • Descarga(s) : 0
  • Publicado : 14 de diciembre de 2010
Leer documento completo
Vista previa del texto
CIEN AÑOS
*** INTRO ARPEGIADO ***
G* Am D7e|---------0-0-------|---------5--5-------|---------5--5-------|
B|---------0-0-------|---------5--5-------|---------7--7-------|
G|-------4-----------|-------6------------|-------5------------|D|-----5---------5---|-----7----------7---|-----7----------7---|
A|---5---------------|---7----------------|---5----------------|E|-3---------------3-|-5------------------|-5----------------5-|

G* Am D7e|---------0--0-------|---------5--5------|---------5--5-------|
B|---------0--0-------|---------5--5------|---------7--7-------|
G|-------4------------|-------6-----------|-------5------------|D|-----5----------5---|-----7----------7--|-----7----------7---|
A|---5----------------|---7---------------|---5----------------|E|-3----------------3-|-5-----------------|-5----------------5-|


G**
e|-----------0-------0--|
B|---------0---0-----0--|G|-------4-------4---4--|
D|-----5-------------5--|
A|---5---------------5--|
E|-3-----------------3--|*** REQUINTO ***
|-----SOLO-----|G* Am D7 G**e|------7-7-7-7-7-7-7-6-5----|-8~10-8-------------------------|
B|------------------------8--|--------11-10-8-----------------|
G|-4~7-----------------------|----------------10-8—8~10-8--7--|...
tracking img