Historia

Solo disponible en BuenasTareas
  • Páginas : 8 (1975 palabras )
  • Descarga(s) : 0
  • Publicado : 26 de octubre de 2010
Leer documento completo
Vista previa del texto
Alma mia JJ
Am E7 Am
El día que me olvides alma mía
G C
yo se que existirás en mi penar
F
al verme solo, triste y olvidado
B7 E7
mi vida la haría arrancar
AmE7 Am
mi vida la haría arrancar.

Am E7 Am
Hay cosas que se reciben con resignación
G C
hay golpes que el destino da sin compasión
F
pero cuando se pierde un cariñoB7 E7
no hay nadie que calme ese dolor
Am E7 Am
no hay nadie que calme ese dolor.

G C
Fuiste tú todo mi ser
G C
mi amor todo te lo entregue
GC
y el amor que te profeso
G C
es el más puro, mujer.


E7
Si los lazos que nos unen
Am
se llegaran a romper
C E7
que se acabeahorita mismo
Am
la existencia de mi ser

Alama Mia JJ

Intro: re

re
A) El dia que me olvides alma mia
FA DO7 FA
yo se que existiras en mi penar
SIb FA
al verme solo, triste y olvidado
MI7 LA7
mi vida la haria arrancar
FALA7 re
mi vida la haria arrancar
re LA7 re
B) Hay cosas que se resiben con resignacion
FA DO7 FA
hay golpes que el destino da sin compacion
SIb FA
pero cuando se pierde un cariño
MI7 LA7
no hay nadie que calme ese dolor
FA LA7re
no hay nadie que calme ese dolor
DO7 FA
C) fuiste tu todo mi ser
DO7 FA
mi amor todo te entregue
DO7 FA
y el amor que te profeso
DO7 FA
es mas puro mujer
LA 7
D)(Si los lazos que nos unen
re
se llegaran a romper
SIb FAque se acabe ahorita mismo
LA7 re
la existencia de mi ser)(Bis)

cuando llora mi guitarra

cancion de mil y una botellas
una de las que + me gusta...
estoy orgulloso de esta canciòn
pues es de un cantautor de mi jodida pero conforme patria.

en Em.
Am Eme|--12-8--------------8--8---------8------8--8------8-------8vvv---
B|--12-8-10vvv----10-10-10----10--10-10--10-10--10-10-10-12-9vvv---
G|-----------------------------9------9----------9-----9-12--------
D|-----------------------------------------------------------------
A|-----------------------------------------------------------------
E|-----------------------------------------------------------------
B7e|---7-7---7---7-7---7-------------------------------------
B|-8-8-8-8-8-8-8-8-8-8-8-10-7vvv---------------------------
G|-9-----9---9-----9---9-11-8vvv---------------------------
D|---------------------------------------------------------
A|---------------------------------------------------------
E|---------------------------------------------------------
Em E7...
tracking img