Musica clasica

Solo disponible en BuenasTareas
  • Páginas : 2 (300 palabras )
  • Descarga(s) : 0
  • Publicado : 27 de febrero de 2012
Leer documento completo
Vista previa del texto
MOENIA--------NO PUEDO ESTAR SIN TI
INTRO:


Riff1:
G A F#mBm A
e -------------:-------------------:---------------:---------:---------:
b-------------:-------------------:---------------:---------:---------:
g ------0------:---------2---------:-------2-------:-------4-:-------2-:
D ----0---0--0-:-------0---0-------:-----0---0---0-:---4-----:---2-----:A --2-------2--:-----4-------4---4-:---4-------4---:-2---5---:-0---4---:
E -3-----------:---5-----------5---:-2-------------:---------:---------:G A F#m Bm (rasgue)
e-------------:-------------------:---------------:-2-:
b -------------:-------------------:-------0-------:-3-:
g ------0------:---------2---------:---------------:-4-:D ----0---0--0-:-------0---0-------:-----0---0---0-:-4-:
A --2-------2--:-----4-------4---4-:---4-------4---:-2-:
E-3-----------:---5-----------5---:-2-------------:---:


Toca el Riff 1 durante el verso igual como esta arriba... puse los
acordes para que no se pierdan y sepan queseccion del riff
concuerda con cada phrase.


Riff1:

G A F#m Bm AG
Aqui estoy, veo la lluvia caer

A F#m Bm A G
Y parece, que este día, no termina...
tracking img