Residen evil

Solo disponible en BuenasTareas
  • Páginas : 2 (322 palabras )
  • Descarga(s) : 0
  • Publicado : 13 de septiembre de 2010
Leer documento completo
Vista previa del texto
1.Guitar 1

Main Riff

00:00 - 00:43

Eb:--------7--5--7-8-7---------------|Bb:---7--8---------------------------|
Gb:9---------------------------------|
Db:----------------------------------|Ab:----------------------------------|
Db:----------------------------------|

2.Guitar 2

Part A

00:14 -00:27

Eb:-----------------------------------|
Bb:-----------------------------------|
Gb:-----------------------------------|Db:-----------------------------------|
Ab:-2-2-2-2-2-2-----------------------|
Db:-2-2-2-2-2-2-----------------------|--pm------------------------------|

3.Part B

00:29 - 00:43Eb:-------------------------------------------|
Bb:-------------------------------------------|
Gb:-------------------------------------------|Db:-------------------------------------------|
Ab:-2-2-2-2-2-2--2-2-2-2--2-2-2-2-2-2-2-2-2-2-|
Db:-2-2-2-2-2-2--2-2-2-2--2-2-2-2-2-2-2-2-2-2-|
--pm------- --pm-----pm--------pm-------|


4.Chorus(Both Guitars)

00:45 - 00:55Eb:-----------------------------------|
Bb:-----------------------------------|
Gb:-----------------------------------|
Db:-10-----9-----2--------------------| Repeat 3 times...
tracking img