Resumen de por que a mi

Solo disponible en BuenasTareas
  • Páginas : 2 (419 palabras )
  • Descarga(s) : 0
  • Publicado : 20 de agosto de 2012
Leer documento completo
Vista previa del texto
MERIDIAN TABs
. = palm mute
t = tapping
h = hold
p = pause
s = slide
~ = ring out0:00 - 0:17
|----------------------------|
|--3~---3~---3~--------------|
|--2~---3~---2~--------------||--0~---0~---0~--------------|x2
|--0~---0~---0~--------------|
|----------------------------|


Palm muted0:18 - 0:45
|------------------------------|
|------------------------------|
|------------------------------||-------0(X8)------------------|
|-1(x8)------0(X16)------------|
|------------------------------|
. . .

Tremolo0:46 - 0:59
|------------------------------------------------|
|------------------------------------------------||------------------------------------------------|
|-------0(x16)--------------0(x14)--8(x2)-7(x16)-|
|-1(x16)------0(x32)--1(x16)---------------------||------------------------------------------------|

Single strokes 1:00 - 1:14
|------------------------------------------------------||------8(X8)-----15(X8)-----8(X6)-11(X2)-10(X8)-15(x8)-|
|-7(X8)-----7(X8)------7(X8)---------------------------|
|------------------------------------------------------||------------------------------------------------------|
|------------------------------------------------------|

1:14 - 1:24...
tracking img