Tabs glasgow kiss

Solo disponible en BuenasTareas
  • Páginas : 4 (767 palabras )
  • Descarga(s) : 0
  • Publicado : 16 de febrero de 2012
Leer documento completo
Vista previa del texto
E||---------------------------------------|
B||-----------7--------10--7--9--7--------|
G||--------9-----9------------------9-----|D||-----9-----------9------------------9--|
A||--7------------------------------------|
E||---------------------------------------|--------------------------------------|---------------------------------------|-----------7--------------------------|-----------7--------10--7--9--7--------|
--------9-----9-----7--6-----------6--|--------9-----9------------------9-----|-----9-----------9--------9--7--9-----|--9--------------9------------------9--|
--7-----------------------------------|-----7---------------------------------|--------------------------------------|---------------------------------------|

--10--7--9--7-9-7---------------------------|-------------------10--7--10-----10-----10--|
------------------------------9------7------|
--------------------------------------------|--------------------------------------------|
--------------------------------------------|---------------------------------------|--------------------------------------|
-----------7--------10--7--9--7--------|-----------7--------------------------|--------9-----9------------------9-----|--------9-----9-----7--6-----------6--|
-----9-----------9------------------9--|-----9-----------9--------9--7--9-----|...
tracking img