The day that never comes

Solo disponible en BuenasTareas
  • Páginas : 4 (969 palabras )
  • Descarga(s) : 0
  • Publicado : 2 de marzo de 2011
Leer documento completo
Vista previa del texto
0:14 (x4) 0:45
|----------------------|-------------------------------|
|-*------------------*-|-------------------------7-(7)-||-*------------------*-|-------------------7-8-9-------|
|---5---5---5--5-(5)---|--5---5---5--7-8-9-------------|

0:56 1:04
|-------------------------------------|--------------||-------------------------------------|-*------------|
|-------------------------------5-(5)-|-*------------|
|--5-(5)---3-(3)---0-(0)--7-(7)-------|--5--5-5--5-4-|

1:20-----------------------------------------|------------------------------|
---------------------------------------*-|----------5-7\----------------|---------------------------------------*-|------5-7---------------------|
3--3-3--2-1--0--0-0--0-0--7---7-7-2-3-4--|--5------------3--3-3--2-1-0--|

1:29-----------------------|-----------------------------------------------|
-----------------------|-*---------------------------------------------|
-----------------------|-*---------------------------------------------|0-0--0-0-7---7-7-7--0--|--5--5-5--5-4--3--3-3--2-1--0--0-0--0-0--7---7-|

(x3) 1:53
---------|-------------------------------------------------------------|-------*-|-*-----------------------------------------------------------|
-------*-|-*-3---3-3---------------------------------------------------|
7-2-3-4--|----------0-0-0-0-0-0-0-0--3-(3)--0-0-0-0-0-0-0-0--0-(0)---0-|

(x4) 2:232:28 2:30
-----------|--------------------7-8-9--------|-------|-----------------|
---------*-|--------------7-8-9--------------|-------|-*---------------|---------*-|--------7-8-9-------------7-(7)--|-------|-*---------------|
7-6-0-7-6--|--7-8-9--------------------------|--0-5--|--7--7-7--7-5-3--|

1. 2....
tracking img