Vectores

Solo disponible en BuenasTareas
  • Páginas : 14 (3394 palabras )
  • Descarga(s) : 0
  • Publicado : 14 de marzo de 2012
Leer documento completo
Vista previa del texto
AVENTURA ENSEÑAME A OLVIDAR

e-------8-9-11-11/13-11-11h13-11-9-8---8h9-8----------9/11-9--------
b--9-11-------------------------------------11-9----9--------11-----
g------------------------------------------------10-----------------d-------------------------------------------------------------------
a-------------------------------------------------------------------
E-------------------------------------------------------------------

e-----------------------11-9------------8-----15--15--15--15--------
b--------9-9h11-9-------11-9--9-9h11-9--9---15--15--15--15----------g--10-13----------135----------------------------------------------
d-------------------------------------------------------------------
a-------------------------------------------------------------------
E-------------------------------------------------------------------e-----13-12-13------------8-----15--15--15--15-------13-12-13-------
b---13----------9-9h11-9--9---15--15--15--15-------13---------------
g-13---------------------------------------------13-----------------
d-------------------------------------------------------------------
a-------------------------------------------------------------------E-------------------------------------------------------------------

e-----------8--6----------------------------------------------------
b-9-9h11-9--9--7--11h13-11-8-8h9------------------------------------
g-------------------------------------------------------------------
d-------------------------------------------------------------------a-------------------------------------------------------------------
E-------------------------------------------------------------------

e------11-9-----11-9-----11-9---11-11-11--9/11--9--9--9-6-6-6----
b-----9--------9--------9-------11-11-11--9/11--9--9--9-6-6-6----g----8--------8--------8--------12-12-12-10/12-10-10-10-6-6-6----
d--10-------10-------10---------13-13-13-11/13-11-11-11-8-8-8----
a----------------------------------------------------------------
E----------------------------------------------------------------

e--------11-11-11/-9--9---------------------------------------------b------11---11-11/-9--9--11h13-11-8-8h9-----------------------------
g----12-----12-12/10-10---------------------------------------------
d--13-------13-13/11-11---------------------------------------------
a-------------------------------------------------------------------E-------------------------------------------------------------------

Despues de "Sera posible un dia decirte que por fin ya no te amo"
terminar en:

e--8-8-8-9-8-9-11-----
b----------------------
g----------------------

"Y aun que te deje de amar es imposible que te pueda olvidar"e--13p11----11-13p11----11-13---
b--------13----------13----------

Pa' el coro los acordes son:

e----9---8--11---------------------------
b----9---9--11---------------------------
g---10---8--12---------------------------
d---11--10--13---------------------------...
tracking img