Dulce hoja

Solo disponible en BuenasTareas
  • Páginas : 2 (342 palabras )
  • Descarga(s) : 4
  • Publicado : 6 de junio de 2010
Leer documento completo
Vista previa del texto
Dulce hoja

Intro/verso:
e|------------------------|
b|------------------------|
g|------------------------| intro x4
d|---------7-6-5--5-5-6-7-| verso x12
a|-7-7-(5)-5-4-3--3-3-4-5-|E|-5-5-(3)----------------|

oh, si!

Riff 1:
e|---------------------|
b|---------------------|
g|---------------------|
d|-----------5-5/9-7-2-|
a|-7-7-7-7-5-3-3/7-5-0-|E|-5-5-5-5-3-----------| x4

verso 2:
e|---------------------|
b|---------------------| aqui se utiliza una distorcion
g|-------7-6-5-5-5-6-7-| bien agresiva, o un efecto
d|-7-7-5---------------| llamadopitch.
a|---------------------|
E|---------------------|

Otra vez se toca el riff 1
y despues:

Riff 2:
e|---------------------|
b|---------------------|
g|---------------------| Entrecada strum
d|---------------------| va la bateria.
a|-7-----7-----7-----7-|
E|-5-----5-----5-----5-|

Riff 3: improvisa sobre:e|-------------|-------------|-----------|-----------------------|
b|-------------|-------------|-----------|-14-13-12--------------|
g|-------------|----11-12-11-|-14~-------|----------13-12--------|d|-9-11-9-11-9-|-12----------|-----------|----------------13-12--|
a|-9-9--9-9--9-|-------------|-----------|-----------------------|
E|-7-9--7-9--7-|-------------|-----------|-----------------------| (x4)
Elstruming ^ ^ ^ ^ ^ creo que cada quien debe
(rasgueo) es aprox. x 20 despues imaginarse su pequeño solo.
algo rapido. de las 20asi acaba.

Post riff 3: G A G (x3)

despues:

Intro/verso
Riff 1
Intro/verso
Riff 1 hasta el final.

Dulcew hoja :

INTRO/VERSO***G|-----------------------------------------
D|-----------------------------------------
A|-0-0--5-4-3-33/4-4--------------------
E|-----------------------------------------

Ohh siii!!! ((00:45))...
tracking img