Estudiante

Solo disponible en BuenasTareas
  • Páginas : 2 (468 palabras )
  • Descarga(s) : 0
  • Publicado : 18 de noviembre de 2010
Leer documento completo
Vista previa del texto
SYSTEM OF A DOWN
CHOP SUEY

Introdução: Tocar 4 vezes

D | --------------------------------------------------------------------------- |
A |--------------------------------------------------------------------------- |
F | 5--5-5-5-5-5-5-5-5/7--7-7-7-7-7-7-7-7/4--4-4-4-4-4-4-4-4/2--2-2-2-2-2-2-2-2 |
C |7--7-7-7-7-7-7-7-7(b9)-(b9)(b9)(b9)(b9)(b9)(b9)(b9)9/5--5-5-5-5-5-5-5-5/3--3-3-3-3-3-3-3-3 |
G | 0--0-0-0-0-0-0-0-0-0--0-0-0-0-0-0-0-0-0--0-0-0-0-0-0-0-0-0--0-0-0-0-0-0-0-0 |
C | --------------------------------------------------------------------------- |

Terceira parte daintrodução.
e | -------------------------------------------------------- |
B | -------------------------------------------------------- |
G | -3---3---3---5---5---5---2---2---2---0---0---0----------| Segunda Guitarra
D | ---5---5---5---7---7---7---3---3---3---1---1---1-------- |
A | -------------------------------------------------------- |
E |-------------------------------------------------------- |

G5 F#5
Wake up (Wake up) Grab a brush and put a little make-up

F#5 G5
Hide the scars to fade away theshakeup

(Hide to fade away the shakeup)
G5 F#5
Why'd you leave the keys upon the table?
F#5 G5
Here yougo create another fable - You wanted to!
G5 F#5
Grab a brush and put a little makeup - You wanted to!
F#5 G5
Hide the scars to fade away theshakeup - You wanted to!
G5 F#5
Why'd you leave the keys upon the table? - You wanted to!

Gm Cm F7 Bb7
I don't think you trust in, my,self righteous:
Gm Cm F7 Bb7 (deixa soar) : guitarra 2 fazendo
Suicide I, cry, when angels deserve to : RIFF 2

DIE Whraaaaaaaaaaaaaaaghhhhh! :...
tracking img