Estudiante

Solo disponible en BuenasTareas
  • Páginas : 7 (1617 palabras )
  • Descarga(s) : 16
  • Publicado : 3 de agosto de 2010
Leer documento completo
Vista previa del texto
______ _________ ___ ___ ___ _ _______
/ /| ____\_ ____//| | | | | | / \
/ / | |_ | | / | | | | | | / /_\ 0 __
/_ / | __| | | / 0| | | | | || | _ | __
/ //| | |___ | | / _ | |_| |_| | / /| |
/ / | |_____| |_|/_/ ||___|___|_| _/ | |
/ /__ |/ | __
/ /
/ /
| / FadeTo Black |
| / Ride The Lighting |
| / Elektra Records |
|/ *1984* |

Acoustic gtr.
|------------------------|------------------------|
|------------------------|------------------------|
|-------0----------------|-------0----------------||----4-----4-----4-----4-|----4-----4-----4-----4-|
|-2-----------2-----5----|-0-----------0-----5----|
|------------------------|------------------------|

|------------------------|------------------------|
|------------------------|------------------------|
|-------0----------------|-------2----------------|
|----4-----4-----4-----4-|----2-----2-----2-----2-||-2-----------2-----5----|-4-----------4-----0----|
|------------------------|------------------------|

w/Flanger or chorus
|----------------------------------------------------------|
|-----------------------------------------------7----------|
|--------------------------------------------7-(7)---------|
|--------------------------------------/-9-----------9-----|
|----------------------------------------------------------||----------------------------------------------------------|

|--------------------------|-----------------------|
|-----7--8-/-10------8--10-|-12---10---8---10------|
|--------------------------|-----------------------|
|--------------------------|-----------------------|
|--------------------------|-----------------------|
|--------------------------|-----------------------|p p sl h p h
|------------------------------|---------------------|
|-(10)---12^10^8--7^8^7-----7-|-7^8--7-----7--------|
|-------------------------9----|---------9-----9---7-|
|------------------------------|---------------------|
|------------------------------|---------------------|
|------------------------------|---------------------|

sl slp
|----------------------------|-----------------|-----|
|----------------------------|---------------8-|-7---|
|----------------------7--6-|----------7^6----|-----|
|-7---9----------(9)--------|-----------------|-----|
|----------------------------|-----------------|-----|
|----------------------------|-----------------|-----|

sl ~~~~~~~~~~~~~~
|---------------------||-8-/-10--------------|
|---------------------|
|---------------------|
|---------------------|
|---------------------|
full
p ) ~~~~~~~~~~~~~
|---14-19-14-----15^14---------------------/--------------|
|-15--------15--------15---17-15-14-------/---------------||-------------16--------14---------16-14-/----(14)---------|
|----------------------------------------------------------|
|----------------------------------------------------------|
|----------------------------------------------------------|

h ~~~~~~~~~~ h h p
|---------------------------------------------------------|
|---------------------------------14-15-14^15^14----14^15-||-14^16---------------------14-16----------------16-------|
|--------14----------14^16--------------------------------|
|---------------------------------------------------------|
|---------------------------------------------------------|

~~~~~~~~~~~~~~~~~
|----19--17--15----------15--17-|-14----------------------|
|-14----------------------------|----15-------------------|...
tracking img