Guitarra

Solo disponible en BuenasTareas
  • Páginas : 5 (1093 palabras )
  • Descarga(s) : 0
  • Publicado : 28 de agosto de 2012
Leer documento completo
Vista previa del texto
Acá encontraras algunos acordes(si es que no los sabes) con estos tocaras todas los temas que acá te ofrezco, no te desesperes, estoy seguro que en un día te puedes aprender los mayores, en otro día los menores y en otro las séptimas. Las bolitas indican donde debes poner los dedos, los números(1,2,3,4,5,6)son las cuerdas(no olvidar que 1 es la primera cuerda,2 la segunda y ...) y los númerosromanos significa en que traste(el traste es el espacio que hay entre dos fierritos que están en el mástil de tu guitarra), como puedes ver hay muchos, por lo tanto hay varios trastes, todas estos acordes están hechas con los primeros traste así que no va ver mucha dificultad para aprenderlos, practícalos.



DOM=DO MAYOR

--VI...III...II...I
|----|----|----|----|---6|----|--0-|----|----|---5
|----|----|--0-|----|---4
|----|----|----|----|---3
|----|----|----|--0-|---2
|----|----|----|----|---1

REM


--VI...III...II...I
|----|----|----|----|--6
|----|----|----|----|--5
|----|----|----|----|--4
|----|----|--0-|----|--3
|----|--0-|----|----|--2
|----|----|--0-|----|--1

MIM


--VI...III...II...I
|----|----|----|----|--6
|----|----|-0--|----|--5|----|----|-0--|----|--4
|----|----|----|-0--|--3
|----|----|----|----|--2
|----|----|----|----|--1

FAM


..VI..III...II...I
|----|----|----|-0--|--6
|----|-0--|----|-0--|--5
|----|-0--|----|-0--|--4
|----|----|-0--|-0--|--3
|----|----|----|-0--|--2
|----|----|----|-0--|--1

Nota: En el FAM a si como en otras notas se usan puentes, que los tienes que hacer con el dedoíndice(en el FAM por ejemplo, en trate I, el índice esta representado por esa fila de círculos tienes que presionar todas las cuerdas con ese dedo, y las otras con los dedos restantes)

SOLM


..VI..III...II...I
|----|-0--|----|----|--6
|----|----|-0--|----|--5
|----|----|----|----|--4
|----|----|----|----|--3
|----|----|----|----|--2
|----|-0--|----|----|--1

LAM..VI..III...II...I
|----|----|----|----|--6
|----|----|----|----|--5
|----|----|-0--|----|--4
|----|----|-0--|----|--3
|----|----|-0--|----|--2
|----|----|----|----|--1

SIM


..VI..III...II...I
|----|----|--0-|----|--6
|----|----|--0-|----|--5
|-0--|----|--0-|----|--4
|-0--|----|--0-|----|--3|
|-0--|----|--0-|----|--2
|----|----|--0-|----|--1



Ahora vamos con los acordesmenores:

dom=do menor

..IIV..IV...V....VI..III...II...I
|----|----|----|----|-0--|----|----|--6
|----|----|----|----|-0--|----|----|--5
|----|----|-0--|----|-0--|----|----|--4
|----|----|-0--|----|-0--|----|----|--3
|----|----|----|-0--|-0--|----|----|--2
|----|----|----|----|-0--|----|----|--1

rem


..IIV..IV...V....VI..III...II...I
|----|----|----|----|----|----|----|--6|----|----|----|----|----|----|----|--5
|----|----|----|----|----|----|----|--4
|----|----|----|----|----|--0-|----|--3
|----|----|----|----|--0-|----|----|--2
|----|----|----|----|----|----|--0-|--1


mim


..IIV..IV...V....VI..III...II...I
|----|----|----|----|----|----|----|--6
|----|----|----|----|----|-0--|----|--5
|----|----|----|----|----|-0--|----|--4|----|----|----|----|----|----|----|--3
|----|----|----|----|----|----|----|--2
|----|----|----|----|----|----|----|--1


fam


..IIV..IV...V....VI..III...II...I
|----|----|----|----|----|----|-0--|--6
|----|----|----|----|-0--|----|-0--|--5
|----|----|----|----|-0--|----|-0--|--4
|----|----|----|----|----|----|-0--|--3
|----|----|----|----|----|----|-0--|--2|----|----|----|----|----|----|-0--|--1


solm


..IIV..IV...V....VI..III...II...I
|----|----|----|----|-0--|----|----|--6
|----|----|-0--|----|-0--|----|----|--5
|----|----|-0--|----|-0--|----|----|--4
|----|----|----|----|-0--|----|----|--3
|----|----|----|----|-0--|----|----|--2
|----|----|----|----|-0--|----|----|--1


lam


..IIV..IV...V....VI..III...II...I
|----|----|----|----|----|----|----|--6...
tracking img