Guitarra

Solo disponible en BuenasTareas
  • Páginas : 3 (623 palabras )
  • Descarga(s) : 0
  • Publicado : 23 de octubre de 2010
Leer documento completo
Vista previa del texto
(2 guitarra)
pueden empesar marcando los acordes, de esta manera.
|------2---2---2---|-----3--3----|------2---2---2---||-------1---1---1--|------3--3---|-------1---1---1--|
|--------2---2-----|-------0--0--|--------2---2-----|
|---0--------------|--0----------|---0--------------||--0---------------|-2-----------|--0---------------|
|-0----------------|3------------|-0----------------|
Re7 Sol Re7|--------3-|
|-------3--|
|------0---|
|-----0----|
|----2-----|
|---3------|
Sol(1 guitarra)
esto es una introduccion lenta.
|-7--7--7--8--7-5-3-3-2|2-2-2-3-2--------|
|-8--8--8-10--8-7-5-5-3|3-3-3-5-3-5-3-3-0||----------------------|----------5-4-4-0|
|----------------------|-----------------|
|----------------------|-----------------||----------------------|-----------------|

|-7--7--7--8--7--5-|8-8-7-7-5-5-3-3-0|
|-8--8--8-10--8--7-|9-9-7-7-5-5-4-4-0||------------------|-----------------|
|------------------|-----------------|
|------------------|-----------------|
|------------------|-----------------||-7--7--7--8--7-5-3-3-2|7-7--8--8-7-10-12-10|
|-8--8--8-10--8-7-5-5-3|8-8-10-10-8-12-13-12||----------------------|--------------------|
|----------------------|--------------------|
|----------------------|--------------------|
|----------------------|--------------------|...
tracking img