Historia

Solo disponible en BuenasTareas
  • Páginas : 6 (1262 palabras )
  • Descarga(s) : 0
  • Publicado : 2 de diciembre de 2010
Leer documento completo
Vista previa del texto
G||------------------------|-----------------------|------------------------|
D||------------------------|-----------------------|------------------------|
A||------------------------|-----------------------|------------------------|
E||--7----7--7--7----7--7--|--7----7--7--7----5----|--7----7--7--7----7--7--|----------------------|------------------------|-----------------------|
----------------------|------------------------|-----------------------|
------------7----7/---|------------------------|-----------------------|
--5----5/-------------|--7----7--7--7----7--7--|--7----7--7--7----7----|--------------------------|---------------------|------------------------|
--4-----------------------|---------------------|------------------------|
-----7--5--4--7--5--4--0--|-------2----2--------|------------------------|--------------------------|--2------------------|--7----7--7--7----7--7--|



-----------------------|------------------------|----------------------|
-----------------------|------------------------|----------------------|
-----------------------|------------------------|------------7----7/---|--7----7--7--7----5----|--7----7--7--7----7--7--|--5----5/-------------|



------------------------|-----------------------|--------------------------|
------------------------|-----------------------|--4-----------------------|
------------------------|-----------------------|-----7--5--4--7--5--4--0--|--7----7--7--7----7--7--|--7----7--7--7----7----|--------------------------|


4x
|-------------------------||-----------------------|-----------------------|
|*-----------------------*||-----------------------|-----------------------||*-------2----2----2--0--*||-----------------------|-----------------------|
|---2---------------------||--0----5----5----5--3--|--0----5----5----5--0--|



|-------------------------||------------------------|-------------------------|
|*-----------------------*||------------------------|-------------------------||*-------2----2----2--0--*||--0----0--0--0----0--0--|--0----0--0--0--0--0-----|
|---2---------------------||------------------------|----------------------0--|



-----------------------|----------------------||-------------------------||-----------------------|----------------------||*-----------------------*||
-------2----2----2--0--|-------2----2----2----||*-----------------------*||
--2--------------------|--2-------------------||---0----5----5----5--0---||



-----------------------|-----------------------||--------------------------||-----------------------|-----------------------||*------------------------*||
-------2----2----2--0--|-------2----2----2--0--||*--0----0--0--0----0--0--*||
--2--------------------|--2--------------------||--------------------------||



----------------------------||--------------------------|...
tracking img